Guitar Lessons

Guitar 101

Cartoons, Theme Songs, & Jingles

Cartoons

Spongebob Squarepants, a cartoon icon, and a sponge that really soaks it up in the water. Though he’s never had a top 40 hit, the songs are written well, and quite catchy. Let’s look at some of those cool numbers…

The Campfire Song Song
Capo On the 3rd fret

The chords are – G/Am7/A7/D
G/Am7/G/Am7/G/Am7/G/A7/D

The Fun Song

D/G/D/A
D/G/D/A/D

Best Day Ever
Capo on 2nd fret

A/Bm/E

————————————————————————————————————————————————————————–

Theme Songs 

Pink Panther

e——————————————————————–|
b——————————————————————–|
g————————–5-4———–4-3—-2-0————-|
d-1-2–4-5—-1-2-4-5———-2-5————–2-0-2—–|
a——————————————————————–|
e——————————————————————–|

Green Acres

e--------------------------------------------------------|
b--------------------------------------------------------|
g----------------2--2-------------------1--1-------------|
d------2-4-2------------------2-4-2----------------------|
a-0-4--------------------0-4-----------------------------|
e--------------------------------------------------------|

e---------------------------------------------------------|
b---------------------------------------------------------|
g--------------------2--4--2-----------------------2---2--|
d------2-4-2---0-4------------2-----0---------------------|
a-0-4-----------------------------4----2---0--------------|
e---------------------------------------------------------|

---------------------------------------------------------------------------------------------------------
Jingles 
When I think of jingles, I think of short and sweet. It's always straight and to the point. 
Here's a few jingles to curve your appetite.

McDonalds - I'm Loving It

e|-----------4--2------------------------------------|
B|--0--2--4------------------------------------------|
g|---------------------------------------------------|
d|---------------------------------------------------|
a|---------------------------------------------------|
e|---------------------------------------------------|
YouTube lesson video here - http://youtu.be/7nYv0LbaMZU

Coke - I'd like to teach the world Chords: G A7 D C G
http://www.youtube.com/watch?v=Q8H5263jCGg&feature=player_embedded
Advertisements

January 23, 2012 - Posted by | Uncategorized

No comments yet.

Leave a Reply

Fill in your details below or click an icon to log in:

WordPress.com Logo

You are commenting using your WordPress.com account. Log Out / Change )

Twitter picture

You are commenting using your Twitter account. Log Out / Change )

Facebook photo

You are commenting using your Facebook account. Log Out / Change )

Google+ photo

You are commenting using your Google+ account. Log Out / Change )

Connecting to %s

%d bloggers like this: